Starblood.org: Cranes Resource












Your Location

home  / 
Shining Road

Also available on:
Loved Sampler
Loved
EP Collection, Vols 1 & 2
Shining Road Single
Alternative Press: Storm The Planet
CMJ New Music Monthly
Canadian record company promo
Operation Strike Force What's in The Bag Volume 1
Super Snax II
Shining Road Video
Click below for:
Tabs

Please order 'Til the Stars Shine at Cranes Fan Forum for these exclusive official lyrics.

Tabs for this song are also available at Cranes Fan Forum Guitarchive.



Bass Tab
Transcription : Scott Sisson

The song is tuned down 1/2 step to Eb.

just don't worry - i'll be there ...
main riff
g-|---------------------------------|-
d-|-----------------1-1-1-----------|-
a-|-3---3---3---3-----------------1-|-
e-|-------------------------3-3-----|-

she's been making plans too long ...
mini-chorus
g-|---------------------------------|---------------------------------|-
d-|---------------------------------|---------------------------------|-
a-|---------------------------------|-----------------3-3-3-3-3-3-3-3-|-
e-|-4-4-4-4-4-4-4-4-6-6-6-6-6-6-6-6-|-4-4-4-4-4-4-4-4-----------------|-

occasionally proir to the main riff
g-|---------------------------------|-
d-|---------------------------------|-
a-|---------------------------------|-
e-|-3---------------3---------------|-

back to top



back

© 2001 Starblood.org.  Disclaimer.  Site Credits.  Designed by Jessie.