Starblood.org: Cranes Resource












Your Location

home  / 
Let Go

Also available on:
Population Four
Ancienne Belgique Promo
Super Snax
Click below for:
Lyrics
Tabs

Tabs for this song are available at Cranes Fan Forum Guitarchive.



Lyrics
I'd like to go ... go ... see what I can find
I'd like to get ... out of here ... just leave it all behind ...
I'd like to visit all the pictures I have in my mind
It makes me feel alright when I see how they shine

Somehow I always get it wrong
I guess I knew all along
The tide that pulled me is too strong
So now I must just move along

I'd like to tear it all up ... start it all again
I'd like to take you along 'cos you're my only friend
Maybe we'll think up a plan to get us out again
Maybe we'll feel hope and have love till the end ...

Before you know it ... it's all gone
The happy dream you had is torn
Cos things get broken in the storm
Pulled from you crushed against the wall

back to top



Bass Tab
Transcription : Scott Sisson

The song is tuned down 1/2 step to Eb.

riff one
g-|-----------------|-----------------|-
d-|-----------------|-----------------|-
a-|---------------3-|-3-3-3-3-0-0-0-0-|-
e-|-0-0-0-0-0-0-0---|-----------------|-

riff two
g-|-----------------|-----------------|-
d-|-----------------|-----------------|-
a-|-------------0-3-|-3-3-3-2-0-0-0-0-|-
e-|-0-0-0-0-0-3-----|-----------------|-

Basically riff one for the verses
And the slightly different riff two for the loud choruses.

back to top



back

© 2001 Starblood.org.  Disclaimer.  Site Credits.  Designed by Jessie.