Starblood.org: Cranes Resource












Your Location

home  / 
Jewel

Also available on:
Forever
Jewel Single
Forever Remixes
CMJ Sampler #2
The Alternative Way / Everything Is Beautiful
Indie Top 20
WRAS 88.5 Presents Radio Odyssey
Sanctuary: 20 Gothic Anthems
Canadian record company promo
Guided By Voices: Sampler
Spin Sampler #4
Benicassim 1995
14 Missed Beats
Nocturnal
Jewel Video
Click below for:
Tabs

Please order 'Til the Stars Shine at Cranes Fan Forum for these exclusive official lyrics.

Guitar tabs for this song are available at Cranes Fan Forum Guitarchive.

The Jewel Acoustic is available for download at our MP3 section.




Bass Tab
Transcription : Scott Sisson

The song is tuned down 1/2 step to Eb.

riff one
g-|---------------------------------|---------------------------------|-
d-|-2---2---2-2-2(0)--2-2---2-2-2---|s5---5---5-4-4-0---2-2---2-2-2-0-|-
a-|---------------------------------|---------------------------------|-
e-|---------------------------------|---------------------------------|-

riff two
g-|---------------------------------|---------------------------------|-
d-|---------------------------------|---------------------------------|-
a-|-0---0---0-0-0-----0-0---0-0-0---|---------------------------------|-
e-|---------------3---------------2-|-3---3---3-3-3-0---0-0---0---3---|-

g-|---------------------------------|---------------------------------|-
d-|---------------------------------|------------------s4-4-4-4-4-4-0-|-
a-|-0---0---0-0-0-----0-0---0-0-0---|---------------------------------|-
e-|---------------3---------------2-|-3---3---3-3-3-3-----------------|-

riff three
g-|---------------------------------|---------------------------------|-
d-|---------------------------------|---------------------------------|-
a-|-3---3---3-3-3-3---3-3-s-5---5-5-|-0---0---0-0-0-0---0-0---0---2---|-
e-|---------------------------------|---------------------------------|-

g-|---------------------------------|---------------------------------|-
d-|---------------------------------|---------------------------------|-
a-|-3---3-3-3-3-3-3---3-3-s-5---5-5-|-0---0---0-0-0-0-----------------|-
e-|---------------------------------|-------------------2-2-2-2-2-2-2-|-

play riff one (sometimes playing 2 where 0 is) for the verses,
and riff two for the chorus ("let's put it high on a wall ...").
play riff three for the bridge after the instrumental.

back to top



back

© 2001 Starblood.org.  Disclaimer.  Site Credits.  Designed by Jessie.