Starblood.org: Cranes Resource












Your Location

home  / 
Adrift

Also available on:
Forever
EP Collection, Vols 1 & 2
Adrift Single
Everywhere Promo
Canadian record company promo
Independent Top 20
Click below for:
Lyrics
Tabs

Tabs are also available at Cranes Fan Forum Guitarchive.



Lyrics
We're like a boat drifting
In a lonely sea
And the stars and moon shine
Down on me

Down, down the river we go
Holding on for dear life
To the last stick of the raft
For we do love
And he tried to be brave
Through each and every tear
And the only warmth
Is the warmth of their bodies

We're like a boat drifting
In a lonely sea
And I start to cry
I need nothing but you
I wish I could be beautiful for you
But I feel as shallow as steel
No words are hollow enough
For how I feel

back to top



Bass Tab
Transcription : Scott Sisson

The song is tuned down 1/2 step to Eb.

riff one
g-|-------------------------|-------------------------|-
d-|-------------------------|-------------------------|-
a-|-0---0---0---0---0---0---|-0---0---0---0---0---0---|-
e-|-------3-----------3-----|-------3-----------3-----|-

g-|-------------------------|-------------------------|-
d-|-------2-----------2-----|-------2-----------2-----|-
a-|-------------------------|-------------------------|-
e-|-0---0---0---0---0---0---|-0---0---0---0---0---0---|-

riff one (alternate fingering)
g-|-------------------------|-------------------------|-
d-|-------------------------|-------------------------|-
a-|-------------------------|-------------------------|-
e-|-5---5-3-5---5---5-3-5---|-5---5-3-5---5---5-3-5---|-

g-|-------------------------|-------------------------|-
d-|-------------------------|-------------------------|-
a-|-------7-----------7-----|-------7-----------7-----|-
e-|-0---0---0---0---0---0---|-0---0---0---0---0---0---|-

riff two
g-|-------------------------|-------------------------|-
d-|-------------------------|-------------------------|-
a-|-0-------0---2-------2---|-3-------3---5-------5---|-
e-|-------------------------|-------------------------|-

g-|-------------------------|-------------------------|-
d-|-------------------------|-------------------------|-
a-|-------------------------|-------------------------|-
e-|-0-------0---2-------2---|-3-------3---2-------2---|-

Play riff one during the verses,
and riff two where it obviously belongs!

back to top



back

© 2001 Starblood.org.  Disclaimer.  Site Credits.  Designed by Jessie.